in

Linkin Park Tablaturas Meteora

Don’t Stay

Intro:
D#|-----------------------------------|
A#|-----------------------------------|
F#|-----------------------------------|
C#|-6-6-6-6--2--4-4-4--7--6-----------|
G#|-4-4-4-6--2--4-4-4--7--6-----------|
C#|-6-6-6-6--2--4-4-4--7--6-----------|
D#|----------------------------------|
A#|----------------------------------|
F#|----------------------------------|
C#|-6-6-6-6--2--0-0-0-0-0------------|
G#|-4-4-4-6--2--0-0-0-0-0------------|
C#|-6-6-6-6--2--0-0-0-0-0------------|
Chorus
D#|------------------------------|
A#|------------------------------|
F#|------------------------------|
C#|-6-6--7--9--4--6--2--0--------|
G#|-4-6--7--9--4--6--2--0--------|
C#|-6-6--7--9--4--6--2--0--------|
Bridge
D#|---------------------------------------------------|
A#|----------------12-12-12-12-12-12-15---------------|
F#|----------------x--x--x--x--x--x--x----------------|
C#|-6-6-6-6--7-7---9--9--9--9--9--9--12---------------|
G#|-4-4-4-4--5-5--------------------------------------|
C#|-6-6-6-6--7-7--------------------------------------|
D#|------------------------------------------------------|
A#|------------------------------------------------------|
F#|------------------------------------------------------|
C#|-6-6-6-6--7-7--0-0-0-0-0-0-0-0-0-0-0-0....------------|
G#|-4-4-4-4--5-5--0-0-0-0-0-0-0-0-0-0-0-0....------------|
C#|-6-6-6-6--7-7--0-0-0-0-0-0-0-0-0-0-0-0....------------|
Faint
Gt. 1:Intro and Chorus
Eb|-----------------------------------
Bb|-----------------------------------
Gb|-----------------------------------
Db|-0-0--7--5--5-5--7--3------------------------
Ab|-0-0--7--5--5-5--7--3-----------------------
Db|-0-0--7--5--5-5--7--3-----------------------
Gt. 2: Intro and Chorus
|play at start|
|of intro |
Eb|-------------|
Bb|-------------|
Gb|--7-7-7-7----|
Db|--X-X-X-X----|
Ab|--5-5-5-5----|
Db|-------------|
Eb|------------------------------------------
Bb|-------------------|----------------------
Gb|-7-7-7/14-14
-12-|-12-12-12/14-14 -10-
Db|-X-X-X/X--X-X--X--|-X--X--X-/X--X-X--X--
Ab|-5-5-5/12-12 -10-|-10-10-10/12-128--8--
Db|-------------------|----------------------
Both guitars:Verse
Eb|-----------------------------------
Bb|-----------------------------------
Gb|-----------------------------------
Db|-2-2--2-2--2-2--7-7--5-5-----------
Ab|-2-2--2-2--2-2--7-7--5-5-----------
Db|-2-2--2-2--2-2--7-7--5-5-----------
Both guitars:Interlude
Eb|-----------------------------------
Bb|-----------------------------------
Gb|-----------------------------------
Db|-0-7-5-2-3-2------------------------------
Ab|-0-7-5-2-3-2-----------------------------
Db|-0-7-5-2-3-2-----------------------------

Somewhere I Belong

Tuning: half step down, Drop-D.
(Low to High) Db Ab Db Gb Bb Eb
a.k.a. C# G# C# F# A# D#
Intro
Gtr 1 (clean w/ a backward loop effect)
(Rhythm Fig. 1)
Eb||--------------------------|
Bb||o-(3)--------------------o|
Gb||---4-----4-----6-----4----| repeat 2x
Db||---4-----5-----7----------|
Ab||o--------------------5---o|
Db||--------------------------|
Gtr 2 (clean)
(Rhy. Fig. 2), Gtr 1 plays Fig. 1 two times
|---------5-----------5----|
|o-5-7--7---7--5-7--7---7-o|
|--------------------------| 4x
|--------------------------|
|o------------------------o|
|--------------------------|
Gtr 3 (w/ distortion) on last repeat
|--------------------------|
|--------------------------|
|-4+=======================|
|-x+===volume swell========|
|-2+=======================|
|--------------------------|
Gtr 3 1.__________________ 2.___________________
|---------------------|--------------------|---------------------|
|o-------------------o|--------------------|---------------------|
|---------------------|--------------------|---------------------|
|-4-4-4-4-4-0-0-0-0-0-|5-5-5-5-5-2-2-2-2-2-|-7-7-7-7-7-2-2-2-2-2-|
|o2-2-2-2-2-0-0-0-0-0o|5-5-5-5-5-2-2-2-2-2-|-7-7-7-7-7-2-2-2-2-2-|
|-4-4-4-4-4-0-0-0-0-0-|5-5-5-5-5-2-2-2-2-2-|-7-7-7-7-7-2-2-2-2-2-|
Gtr 4 (w/ dist.) 1.__________________ 2._________________(Fill 1)
|---------------------|--------------------|---------------------|---|
|o-------------------o|--------------------|---------------------|---|
|-8-8-8-8-8-9-9-9-9-9-|1111111111-9-9-9-9-9|-6-6-6-6-6-4-4-4-4-4-|-4=|
|-x-x-x-x-x-x-x-x-x-x-|x-x-x-x-x--x-x-x-x-x|-x-x-x-x-x-x-x-x-x-x-|-x-|
|o6-6-6-6-6-7-7-7-7-7o|9-9-9-9-9--7-7-7-7-7|-4-4-4-4-4-2-2-2-2-2-|-2=|
|---------------------|--------------------|---------------------|---|
Pre-Verse
Gtr 1 w/ Fig. 1 one time
Gtr 4 w/ Fill 1
Verse 1
Gtr 1 w/ Fig 1 four times
Gtr 2 w/ Fig 2 eight times
Pre-Chorus
Gtr 3 (Fill 2)
|-------|-------|
|-------|-------|
|-------|-------| [*all natural harmonics] (lay finger over fretbar w/o pushing down)
|-[44444|44444]-| d = downstroke
|-[44444|44444]-| u = upstroke
|-[44444|44444]-|
dudud ududu
*Note: These harmonics can also be performed at the 9th fret*
Chorus (Rhy. Fig. 3)
Gtr 3 1.,2.,3.____________ 4.___________________
|---------------------|--------------------|---------------------|
|o-------------------o|--------------------|---------------------|
|---------------------|--------------------|---------------------|
|-4-4-4-4-4-0-0-0-0-0-|5-5-5-5-5-2-2-2-2-2-|-7-7-7-7-7-2-2-2-2-2-|
|o2-2-2-2-2-0-0-0-0-0o|5-5-5-5-5-2-2-2-2-2-|-7-7-7-7-7-2-2-2-2-2-|
|-4-4-4-4-4-0-0-0-0-0-|5-5-5-5-5-2-2-2-2-2-|-7-7-7-7-7-2-2-2-2-2-|
Gtr 4 1.,2.,3.____________ 4.___________________
|---------------------|--------------------|---------------------|
|o-------------------o|--------------------|---------------------|
|-8-8-8-8-8-9-9-9-9-9-|1111111111-9-9-9-9-9|-6-6-6-6-6-4-4-4-4-4-|
|-x-x-x-x-x-x-x-x-x-x-|x-x-x-x-x--x-x-x-x-x|-x-x-x-x-x-x-x-x-x-x-|
|o6-6-6-6-6-7-7-7-7-7o|9-9-9-9-9--7-7-7-7-7|-4-4-4-4-4-2-2-2-2-2-|
|---------------------|--------------------|---------------------|
Verse 2
Gtr 1 w/ Fig 1 four times
Gtr 2 w/ Fig 2 eight times
Pre-Chorus
Gtr 3 w/ half of Fill 2
Chorus
Gtr 3 and Gtr 4 w/ Fig. 3
Bridge
Gtr 3 and Gtr 4 (Rhy. Fig. 4)
|------------------------------------------------------------|
|o----------------------------------------------------------o|
|--------11-11----------11-11----------11-11----------6/7 *-| 2x
|--9---9-x--x-----5---5-x--x-----7---7-x--x-----2---2-x------|
|o-9---9-9--9-----5---5-9--9-----7---7-9--9-----2---2-4/5 *o|
|--9---9----------5---5----------7---7----------2---2--------|
*slide without restrumming
|-----------------------------------------------------------|
|-----------------------------------------------------------|
|-------11-11----------14-14----------11-11----------6/7 *-|
|-9---9-x--x-----5---5-x--x-----7---7-x--x-----2---2-x------|
|-9---9-9--9-----5---5-12-12----7---7-9--9-----2---2-4/5 *-|
|-9---9----------5---5----------7---7----------2---2--------|
Gtr 3 w/ Fig. 4 one time ending with Fill 1 over Gtr 1 w/ Fig. 1
Gtr 3 w/ Fill 2
Outro Chorus
Gtr 3 and Gtr 4 w/ Fig. 3 twice
Outro
Gtr 3 3x
|----------------------------|---------------|||
|o--------------------------o|---------------|||
|----------------------------|---------------|||
|--4-4-4-4-4-4-4--[4-4-4-4]--|-4-4-4-4-4-4-4-|||
|o-2-2-2-2-2-2-2--[4-4-4-4]-o|-2-2-2-2-2-2-2-|||
|--4-4-4-4-4-4-4--[4-4-4-4]--|-4-4-4-4-4-4-4-|||
d u d u

Lying From You

Half step down tune
Intro
e|| ---------------------------------.||
B|| ---------------------------------.||
G||.-----------5--7-6-5--8-7-6-5-----.|| 2 times
D||.-----------5--7-6-5--8-7-6-5--4--.||
A|| -----------3--5-4-3--6-5-4-3--4--.||
E|| -x-x-x-x---3--5-4-3--6-5-4-3--2--.||
Main
(When I pretend,
everything is what I want it be...)
3 times last time
e|| ---------------------------------|--------------------------------- ||
B|| ---------------------------------|--------------------------------- ||
G||.--7-7-------------------5-5-5-5--|--7-7----------------------------.||
D||.--7-7-----------3-3-----5-5-5-5--|--7-7------------3-3-3---5-5-5-5-.||
A|| --5-5-----------3-3-----3-3-3-3--|--5-5------------3-3-3---5-5-5-5- ||
E|| --5-5-----------1-1-----3-3-3-3--|--5-5------------1-1-1---3-3-3-3- ||
Chorus
(You...I wanna be close beside so let me go...)
2 times
e|| ---------------------------------|--------------------------------- ||
B|| ---------------------------------|--------------------------------- ||
G||.--7-7----------------------5-5-5-|--3-3----------------------5-5-5-.||
D||.--7-7----------------3-----5-5-5-|--3-3---------------5------5-5-5-.||
A|| --5-5--7777-3333-55--3-----3-3-3-|--1-1--7777-3333-55-5------3-3-3- ||
E|| --5-5----------------1-----3-3-3-|--1-1---------------3------3-3-3- ||
Bridge
(This isn_t what I wanted to be,
I never thought what I said would have you running from me...)
8 times
e|| ------------------------.||
B|| ------------------------.||
G||.--5--7-6-5--8-7-6-5-----.||
D||.--5--7-6-5--8-7-6-5--4--.||
A|| --3--5-4-3--6-5-4-3--4--.||
E|| --3--5-4-3--6-5-4-3--2--.||
Chorus

Hit The Floor

Verse
Eb|----------------|
Bb|----------------|
Gb|----------------|
Db|----------------|
Ab|----------------|
Db|-0-4-0-1--1-1-0-|
Eb|-----------|
Bb|-----------|
Gb|-----------|
Db|-0-8-8-8-7-|
Ab|-0-8-8-8-7-|
Db|-0-8-8-8-7-|
Chorus
Eb|----------------|-----------|
Bb|----------------|-----------|
Gb|----------------|-----------|
Db|-0-4-0-1--1-1-0-|-0-8-8-8-7-|
Ab|-0-4-0-1--1-1-0-|-0-8-8-8-7-|
Db|-0-4-0-1--1-1-0-|-0-8-8-8-7-|
Bridge
Eb|-----------|-----------|
Bb|-----------|-----------|
Gb|-----------|-----------|
Db|-0-0-0-0-3-|-0-0-0-0-1-|
Ab|-0-0-0-0-3-|-0-0-0-0-1-|
Db|-0-0-0-0-3-|-0-0-0-0-1-|

Easier To Run

x = Mute note
Intro
Eb|---------------------------------------|
Bb|----0x-0x------8----8x-7x------10------|
Gb|-----------0x--------------0x----------| 4x
Db|---------------------------------------|
Ab|---------------------------------------|
Db|---------------------------------------|
Chorus
Eb|------------------------------------|
Bb|------------------------------------|
Gb|------------------------------------| 2x
Db|----2-------5-------7-------4-------|
Ab|----2-------5-------7-------4-------|
Db|----2-------5-------7-------4-------|
Verse 1
Eb|---------------------------------------|
Bb|----0x-0x------8----8x-7x------10------|
Gb|-----------0x--------------0x----------| 9x
Db|---------------------------------------|
Ab|---------------------------------------|
Db|---------------------------------------|
Chorus
Eb|------------------------------------|
Bb|------------------------------------|
Gb|------------------------------------| 2x
Db|----2-------5-------7-------4-------|
Ab|----2-------5-------7-------4-------|
Db|----2-------5-------7-------4-------|
Verse 2
Eb|---------------------------------------|
Bb|----0x-0x------8----8x-7x------10------|
Gb|-----------0x--------------0x----------| 8x
Db|---------------------------------------|
Ab|---------------------------------------|
Db|---------------------------------------|
Bridge
Eb|-------------------------------------|
Bb|-------------------------------------|
Gb|-------------------------------------|
Db|----5-------7-------9-------4--------|
Ab|----5-------7-------9-------4--------|
Db|----5-------7-------9-------4--------|
Eb|-------------------------------------|
Bb|-------------------------------------|
Gb|-------------------------------------|
Db|----5-------7-------7-------7--------|
Ab|----5-------7-------7-------7--------|
Db|----5-------7-------7-------7--------|
Chorus
Eb|------------------------------------|
Bb|------------------------------------|
Gb|------------------------------------| 4x
Db|----2-------5-------7-------4-------|
Ab|----2-------5-------7-------4-------|
Db|----2-------5-------7-------4-------|
Eb|----------------------------------------------------------|
Bb|----------------------------------------------------------|
Gb|----11-11-11-11-11-11-11-11-11-11-11-11-11-11-11-11-------|
Db|-----x--x--x--x--x--x--x--x--x--x--x--x--x--x--x--x-------|
Ab|-----9--9--9--9--9--9--9--9--9--9--9--9--9--9--9--9-------|
Db|----------------------------------------------------------|
Eb|---------|
Bb|---------|
Gb|----7----|
Db|----x----|
Ab|----5----|
Db|---------|

Faint

Intro
Eb|-----------|
Bb|-----------|
Gb|--7-7-7-7--|
Db|--X-X-X-X--|
Ab|--5-5-5-5--|
Db|-----------|
Chorus (guitar 1)
Eb|-------------------|----------------------|
Bb|-------------------|----------------------|
Gb|-7-7-7/14-14
-12-|-12-12-12/14-14 -10-|
Db|-X-X-X/X--X-X--X--|-X--X--X-/X--X-X--X--|
Ab|-5-5-5/12-12 -10-|-10-10-10/12-128--8--|
Db|-------------------|----------------------|
Chorus (guitar 2)
Eb|-------------------|----------------------|
Bb|-------------------|----------------------|
Gb|-------------------|----------------------|
Db|-0-0-0-5--5---3--3-|-3--3--3-5--5---1--1--|
Ab|-0-0-0-5--5---3--3-|-3--3--3-5--5---1--1--|
Db|-0-0-0-5--5---3--3-|-3--3--3-5--5---1--1--|
Eb|-------------------|----------------------|
Bb|-------------------|----------------------|
Gb|-------------------|----------------------|
Db|-0-0-0-7--7---5--5-|-5--5--5-7--7---3--3--|
Ab|-0-0-0-7--7---5--5-|-5--5--5-7--7---3--3--|
Db|-0-0-0-7--7---5--5-|-5--5--5-7--7---3--3--|
Verse
Eb|------|------|--------|---------|------|----------|
Bb|------|------|--------|---------|------|----------|
Gb|------|------|--------|---------|------|-7-7-7-7--|
Db|-0----|-0----|-0-0----|-5-5-----|-7----|-X-X-X-X--|
Ab|-0----|-0----|-0-0----|-5-5-----|-7----|-5-5-5-5--|
Db|-0----|-0----|-0-0----|-5-5-----|-7----|----------|
Bridge (guitar 1)
Eb|-----------------|--------------|
Bb|-----------------|--------------|
Gb|-------------<5>-|--------------|
Db|-0-7-5-7-8-7-----|-0-7-5-7-8-7--|
Ab|-0-7-5-7-8-7-----|-0-7-5-7-8-7--|
Db|-0-7-5-7-8-7-----|-0-7-5-7-8-7--|
Bridge (guitar 2)
Eb|-----------------|--------------|
Bb|-----------------|--------------|
Gb|-----------------|--------------|
Db|-0-7-3-2-3-2-----|-0-7-3-2-3-2--|
Ab|-0-7-3-2-3-2-----|-0-7-3-2-3-2--|
Db|-0-7-3-2-3-2-----|-0-7-3-2-3-2--|

Figure.09

intro
2 times
part 1 repeat first last
e|| ----------------------||-------------- ||------------------ ||
B|| ----------------------||-------------- ||------------------ ||
G||.--6------6------6----*||--------------.||------------------.||
D||.---------------------*||--------------.||------------------.||
A|| --4-4-7--4-4-7--4-4-7-||-4^5-4^5-4^5-- ||-4^5-5-5-5^4-5^4-- ||
E|| ----------------------||-------------- ||-4^5-5-5-5^4-5^4-- ||
part 2 2 times
e|| -------------------------------------------.||
B|| -------------------------------------------.||
G||.----6-------6-------6----------------------.||
D||.------6-------6-------6--------------------.||
A|| --4---7---4---7---4---7--4^5-5-5-5^4-5^4--- ||
E|| --4---0---4---0---4---0--4^5-5-5-5^4-5^4--- ||
main
part 1 2 times
e|| --------------------------------------------.||
B|| --------------------------------------------.||
G||.----6o-------6o------6o---------------------.||
D||.--------------------------------------------.||
A|| --4o------4o------4o------4^5-5-5-5^4-5^4--- ||
E|| --4o------4o------4o------4^5-5-5-5^4-5^4--- ||
o - mute after playing
part 2 2 times
e|| --------------------------------------------.||
B|| --------------------------------------------.||
G||.----6--------6-------6----------------------.||
D||.------6-------6-------6---------------------.||
A|| --4---7---4---7---4---7---4^5-5-5-5^4-5^4--- ||
E|| --4-------4-------4-------4^5-5-5-5^4-5^4--- ||
bridge
e|| ---------------------------- ||
B|| ---------------------------- ||
G||.----------------------------.||
D||.-------7-------7-------7----.||
A|| --4----7--4----7--4----7--4- ||
E|| --4-------4-------4-------4- ||
chorus
3 times
e|| ------------------------------------- ||
B|| ------------------------------------- ||
G||.-----------6-------------------------.||
D||.-----------6------7-------2-----4--6-.||
A|| -----------4------7-------2-----4--6- ||
E|| -----------4------5-------0-----2--4- ||
[and now...]
last time
e|| ------------------------------------- ||
B|| ------------------------------------- ||
G||.-----------6-----------------------7-.||
D||.-----------6------7-------2-----6--7-.||
A|| -----------4------7-------2-----6--5- ||
E|| -----------4------5-------0-----4--5- ||
[you become a part of me...]
...
intro part2
main
chorus
intro part1
...
second chorus
4 times
e|| --------------------------|------------------------- ||
B|| --------------------------|------------------------- ||
G||.--7 --6--6--6/7/9--------|---7 --6--6--6/7/9------.||
D||.--7 --6--6--6/7/9--------|---7 --6--6--6/7/9------.||
A|| --5 --4--4--4/5/7----8---|---5 --4--4--4/5/7----4- ||
E|| --5 --4--4--4/5/7--------|---5 --4--4--4/5/7------ ||
^ ^ ^ ^
P.M. P.M.
[Get away from me!
Give me my space back you gotta just
Go! ...]
chorus

Breaking The Habit

Intro
e--0--5-3-2-0--|-0-3-2-0--0--5-3-2-0--
B-------------o|--4-------------------
G--------------|----------------------
D-------------o|----------------------
A--------------|----------------------
E--------------|----------------------
Verse
e---------------------------
B--0--2-3-0-0--0-1-1-0-0----
G---------------------------
D---------------------------
A---------------------------
E---------------------------

Chorus
e----------------
B-0--5-3-3-5
G---------------
D---------------
A---------------
E---------------

From The Inside

Intro
Eb|--------------------------|---------------------------------------|
Bb|-3-3-3-3-3-3--------------|---------------------------------------|
Gb|-2-2-2-2-2-2--------------|---------------------------------------|
Db|-0-0-0-0-0-0--3-3-3-3-3-3-|-8-8-8-8-8-8--5-5-5-5-5-5--7-7-7-7-7-7-|
Ab|-0-0-0-0-0-0--3-3-3-3-3-3-|-8-8-8-8-8-8--5-5-5-5-5-5--7-7-7-7-7-7-|
Db|-0-0-0-0-0-0--3-3-3-3-3-3-|-8-8-8-8-8-8--5-5-5-5-5-5--7-7-7-7-7-7-|
Verse
Eb|-7---7---7---7---|-5---5---5---5---|---------|
Bb|---5---5---5---5-|---7---7---7---7-|-6---6---|
Gb|-----------------|-----------------|---7---7-|
Db|-----------------|-----------------|---------|
Ab|-----------------|-----------------|---------|
Db|-----------------|-----------------|---------|
Pre-Chorus
Eb|-------------------------|
Bb|-------------------------|
Gb|-------------------------|
Db|-<5>-<5>-<5>-<5>-<5>-<5>-|
Ab|-<5>-<5>-<5>-<5>-<5>-<5>-|
Db|-<5>-<5>-<5>-<5>-<5>-<5>-|
Bridge (part 1)
Eb|-------------|
Bb|-------------|
Gb|-------------|
Db|-0--0-0-0--0-|
Ab|-0--0-0-0--0-|
Db|-0--0-0-0--0-|
Bridge (part 2)
Eb|-------------|
Bb|-------------|
Gb|-------------|
Db|-1--1-1-1--1-|
Ab|-1--1-1-1--1-|
Db|-1--1-1-1--1-|
Bridge (part 3/guitar 1)
Eb|--------------------------|
Bb|--------------------------|
Gb|--------------------------|
Db|-0--0-0-0--0--------------|
Ab|-0--0-0-0--0--<7>-----<5>-|
Db|-0--0-0-0--0------<5>-----|
Bridge (part 3/guitar 2)
Eb|-------------|
Bb|-------------|
Gb|-------------|
Db|-0--0-0-0--0-|
Ab|-0--0-0-0--0-|
Db|-0--0-0-0--0-|

Nobody’s Listening

Chorus
|---------------------------------------------------|
|---------------------------------------------------|
|---------------------------------------------------|
|-3-3--3-3---4-4--4-4---3-3--3-3---1-1---4-4--|
|-3-3--3-3---4-4--4-4---3-3--3-3---1-1---4-4--|
|-3-3--3-3---4-4--4-4---3-3--3-3---1-1---4-4--|

Numb

http://linkinsoldiers.blogspot.com/

Intro (part 1)
D||-10-13-10-15-18-17---------|
A||---------------------------|
F||---------------------------|
C||---------------------------|
G||---------------------------|
C||---------------------------|
Intro (part 2)
D||-10-13-10-18-17-13---------|
A||---------------------------|
F||---------------------------|
C||---------------------------|
G||---------------------------|
C||---------------------------|
Verse (part 1)
D||---------------------------|
A||---------------------------|
F||---------------------------|
C||-5---1---8---3-------------|
G||-5---1---8---3-------------|
C||-5---1---8---3-------------|
Verse (part 2)
D||----10-----10-----10-----10----|
A||-------------------------------|
F||-------------------------------|
C||-5------1------8------3--------|
G||-5------1------8------3--------|
C||-5------1------8------3--------|

Minutes To Midnight

1. Wake
There is a static sound in the beginning, I take the cord out
of the guitar and rub it on some carpet to imitate the sound,
if you want to add this in.
Lead Guitar, number of strums is approximate http://linkinsoldiers.blogspot.com/
|——————————————|
|——————————————|
|-12—-14—-16—-16^—-12—-14—-12–|
|–x—–x—–x—–x——x—–x—–x–|
|-10—-12—-14—-14^—-10—-12—-10–|
|——————————————|
x12 x12 x18 x6 x12 x12 x48

Rhythm (play as whole notes, strumming however many times necessary)
|—————-|
|—————-|
|-5~————-|
|-5~————-|
|-5~————-|

2. Given Up, Intro (play all twice)
|——————————–|
|——————————–|
|——————————–|
|–2—x-x—x-x—x-x-x—–x-x-3-|
|–2—x-x—x-x—x-x-x—–x-x-3-|
|–2—x-x—x-x—x-x-x—–x-x-3-| x3
http://linkinsoldiers.blogspot.com/
|——————————–|
|——————————–|
|———————-3———|
|–2—x-x—x-x—x-x-3—–x-x-3-|
|–2—x-x—x-x—x-x-1—–x-x-3-|
|–2—x-x—x-x—x-x–—–x-x-3-|
No guitar in verse, chorus:
|—————————————————————–|
|—————————————————————–|
|—————————————————————–|
|-2-2-2-2-2-2-2-2-5-5-5-5-5-5-5-5-0-0-0-0-0-0-0-0-7-7-7-7-7-7-7-7-|
|-2-2-2-2-2-2-2-2-5-5-5-5-5-5-5-5-0-0-0-0-0-0-0-0-7-7-7-7-7-7-7-7-|
|-2-2-2-2-2-2-2-2-5-5-5-5-5-5-5-5-0-0-0-0-0-0-0-0-7-7-7-7-7-7-7-7-| x3
end with
|—————————————————————–|
|—————————————————————–|
|—————————————————————–|
|-2-2-2-2-2-2-2-2-5-5-5-5-5-5-5-5-0-0-0-0-0-0-0-0-0-0-0-0-0-0-0-0-|
|-2-2-2-2-2-2-2-2-5-5-5-5-5-5-5-5-0-0-0-0-0-0-0-0-0-0-0-0-0-0-0-0-|
|-2-2-2-2-2-2-2-2-5-5-5-5-5-5-5-5-0-0-0-0-0-0-0-0-0-0-0-0-0-0-0-0-|
http://linkinsoldiers.blogspot.com/
|——————————-|
|——————————-|
|——————————-|
|-7-7-7-7-7-7-7-7—x-x-8—x-x-3-|
|-7-7-7-7-7-7-7-7—x-x-8—x-x-3-|
|-7-7-7-7-7-7-7-7—x-x-8—x-x-3-|
Repeat verse, chorus, then bridge:
|—————————–6^-|
|—————————–5^-|
|——————————–|
|——————————–|
|——————————–|
|-0-1-2-0-4-3-0-6-5-0-1-2-0-2—-| riff a
PM. . . . . . . . . . . . . .
|—————————–6^-|
|—————————–5^-|
|——————————–|
|-0-1-2-0-4-3-0-6-5-0-1-2-0-2—-|
|-0-1-2-0-4-3-0-6-5-0-1-2-0-2—-|
|-0-1-2-0-4-3-0-6-5-0-1-2-0-2—-| riff b

|———————————|
|———————————|
|———————————|
|-0-1-2-0-4-3-0-6-5-0-1-2-0-3-2-0-|
|-0-1-2-0-4-3-0-6-5-0-1-2-0-3-2-0-|
|-0-1-2-0-4-3-0-6-5-0-1-2-0-3-2-0-| riff c
repeat riffs b and c, end with (updated 7/23)
|————————————————-|
|————————————————-|
|————————————————-|
|-0-1-2-0-4-3-0-6-5-0-1-2-3-0-2-3-5-0-1-2-3-0-2-3-|
|-0-1-2-0-4-3-0-6-5-0-1-2-3-0-2-3-5-0-1-2-3-0-2-3-|
|-0-1-2-0-4-3-0-6-5-0-1-2-3-0-2-3-5-0-1-2-3-0-2-3-|
repeat intro and chorus, end song on
|——–|
|——–|
|——–|
|-2——|
|-2——|
|-2——|

3. Leave Out All the Rest
No guitar in verses, intro
Rhythm, chorus http://linkinsoldiers.blogspot.com/
|———————————|
|———————————|
|———5~———————-|
|-7~——5~——3~——0~——|
|-7~——3~——3~——0~——|
|-7~————–3~——0~——| x2
Bridge
|—————————————–|
|—————————————–|
|—————————————–|
|-0~——3~—–7~——10~——3~——|
|-0~——3~—–7~——10~——3~——|
|-0~——3~—–7~——10~——3~——|
Lead (16th notes, plays whenever rhythm plays)
|———————————|
|———————————|
|-5-5-5-5-5-5-5-5-5-5-5-5-5-5-5-5-|
|———————————|
|———————————|
|———————————|

4. Bleed It Out
These are the riffs played throughout the song,
listen for which riff is being played when http://linkinsoldiers.blogspot.com/
|-9—–9—–9—9——-9—–9-7—–7—–7—-7-7-7-7-5-5-5-5-|
|—7-7—7-7—7—7-7-7—7-7—–7-7—7-7—7–7-7-7-7-7-7-7-7-|
|——————————————————————|
|——————————————————————|
|——————————————————————|
|——————————————————————|

x8 x8
|-7—-7—-9—–9—–9—9——-9—–9-|
|-7—-9——7-7—7-7—7—7-7-7—7-7—|
|——————————————-|
|——————————————-|
|——————————————-|
|——————————————-|
http://linkinsoldiers.blogspot.com/
x8 x8
|-7—-7—-7—–7—–7—-7-7-7-7-5-5-5-5-|
|-7—-9——7-7—7-7—7–7-7-7-7-7-7-7-7-|
|——————————————–|
|——————————————–|
|——————————————–|
|——————————————–|
Bridge Rhythm
|———————|
|———————|
|———————|
|-0~——–2~——–|
|-0~——–2~——–|
|-0~——–2~——–|
Repeat until last bar, this kicks in:
|—————————–|
|—————————–|
|—————————–|
|-0-0-0-0—0-0-2-2-2-2—2-2-|
|-0-0-0-0—0-0-2-2-2-2—2-2-|
|-0-0-0-0—0-0-2-2-2-2—2-2-|
Outro lead
|————————————————————————–|
|-7-7-7-7-9-9-9-9-10101010-14-14-14-14-12-12-12-12-8-8-8-8-8-8-8-8-7-7-7-7-|
|-x-x-x-x-x-x-x-x-x-x-x-x—x–x–x–x–x–x–x–x-x-x-x-x-x-x-x-x-x-x-x-x-|
|-4-4-4-4-6-6-6-6-7-7-7-7–11-11-11-11–9–9–9–9-5-5-5-5-7-7-7-7-4-4-4-4-|
|————————————————————————–|
|————————————————————————–|

5. Shadow of the Day
As far as I can hear, no guitars kick in until the solos,
but some people disagree. Maybe I’ve mistaken the guitars for another
sound, but I don’t think there’s anything there guitarwise.
Solo 1 http://linkinsoldiers.blogspot.com/
|——-|———————————|
|—5—|-7—7—7—7—7—5—4—5—|
|-4—4-|—4—4—4—4—4—4—4—4-|
|——-|———————————|
|——-|———————————|
|——-|———————————| x3

|———————————|
|-5—5—4—4—4—4—4—4—|
|—4—4—4—4—4—4—4—4-|
|———————————|
|———————————|
|———————————|
Repeat first riff 4 more times
http://linkinsoldiers.blogspot.com/
Solo 2- solo 1 is played behind this
|—-12—-|-14—-14—-14—-14—-14—-12—-11—-12—-|
|-12—-12-|—-12—-12—-12—-12—-12—-12—-12—-12-|
|———-|————————————————-|
|———-|————————————————-|
|———-|————————————————-|
|———-|————————————————-| x8

End song on
|———–| |-11~——–|
|———–| |————|
|———–| |————|
|-9~——–| |————|
|-9~——–| |————|
|-9~——–| and |————|

http://linkinsoldiers.blogspot.com/

6. What I’ve done, Intro/Chorus rhythm (x2)
|—–|——————————————————————-|
|—–|——————————————————————-|
|—–|——————————————————————-|
|-x-x-|-8-8-8-8-8-8-7-7-8-8-8-8-8-8-10-10-7-7-7-7-7-7-7-7-5-5-5-5-5-5-7-7-|
|-x-x-|-8-8-8-8-8-8-7-7-8-8-8-8-8-8-10-10-7-7-7-7-7-7-7-7-5-5-5-5-5-5-7-7-|
|-x-x-|-8-8-8-8-8-8-7-7-8-8-8-8-8-8-10-10-7-7-7-7-7-7-7-7-5-5-5-5-5-5-7-7-|
end with
|———|
|———|
|———|
|-8~——|
|-8~——|
|-8~——|

Intro/Chorus lead (thanks to Logan_B, AOL Sessions video for corrections)
|————————————————————————-|
|————————————————————————-|
|————————————————————————-|
|——————————————-10-10————————-|
|-13-13-13-13-13-13-12-12-13-13-13-13-13-13——-12-12-12-12-12-12-12-12-|
|————————————————————————-|
(Continued)
————————-|
————————-|
————————-|
————————-|
-10-10-10-10-10-10-12-12-|
————————-|
No guitar in verse, repeat chorus, verse, one bar of chorus, then
variation (lead changes in same way; last chords/notes are played extra):
|———————————————————————————–|
|———————————————————————————–|
|———————————————————————————–|
|-8-8-8-8-8-8-7-7-8-8-8-8-8-8-10-10-7-7-7-7-7-7-7-7-5-5-5-5-5-5-5-5-7-7-7-7-8-8-8-8-|
|-8-8-8-8-8-8-7-7-8-8-8-8-8-8-10-10-7-7-7-7-7-7-7-7-5-5-5-5-5-5-5-5-7-7-7-7-8-8-8-8-|
|-8-8-8-8-8-8-7-7-8-8-8-8-8-8-10-10-7-7-7-7-7-7-7-7-5-5-5-5-5-5-5-5-7-7-7-7-8-8-8-8-|
Solo/Bridge part 1 (rhythm plays chorus behind solo)
Guitar 1 (thanks to AFILEX, my original solo sucked)
|———-|—————————————-|
|———-|—————————————-|
|———-|——————-12~—15~————|
|-12-15-12-|-15p12-15p12-15p12————-12-15-12-|
|———-|—————————————-|
|———-|—————————————-|
http://linkinsoldiers.blogspot.com/
|——————————————-|
|——————————————-|
|——————-12~—14~—12~———|
|-15p12-15p12-15p12——————-15~—|
|——————————————-|
|——————————————-|
Repeat both bars and end with:
|————————————————-|
|————————————————-|
|-12~—15~———12~———————12~—|
|————-12~———12~—15p12-15~———|
|————————————————-|
|————————————————-|
Repeat Chorus for bridge part 2; also play this riff (update 7/23):
|—————————————–|
|—————————————–|
|-7-7-7-7-7-7-7-7-10-10-10-10-10-10-10-10-|
|-5-5-5-5-5-5-5-5–8–8–8–8–8–8–8–8-|
|-5-5-5-5-5-5-5-5–8–8–8–8–8–8–8–8-|
|—————————————–|

|—————————————–|
|—————————————–|
|-12-12-12-12-12-12-12-12-7-7-7-7-9-9-9-9-|
|-10-10-10-10-10-10-10-10-5-5-5-5-7-7-7-7-|
|-10-10-10-10-10-10-10-10-5-5-5-5-7-7-7-7-|
|-10-10-10-10-10-10-10-10-5-5-5-5-7-7-7-7-|

|—————————————–|
|—————————————–|
|-7-7-7-7-7-7-7-7-10-10-10-10-10-10-10-10-|
|-5-5-5-5-5-5-5-5–8–8–8–8–8–8–8–8-|
|-5-5-5-5-5-5-5-5–8–8–8–8–8–8–8–8-|
|—————————————–|

|——————————————————-|
|——————————————————-|
|-12-12-12-12-12-12-12-12-7-7-7-7-7-7-7-7-9-9-9-9-9-9-9-|
|-10-10-10-10-10-10-10-10-5-5-5-5-5-5-5-5-7-7-7-7-7-7-7-|
|-10-10-10-10-10-10-10-10-5-5-5-5-5-5-5-5-7-7-7-7-7-7-7-|
|-10-10-10-10-10-10-10-10-5-5-5-5-5-5-5-5-7-7-7-7-7-7-7-|
keep repeating until end, ending on:
|———–|
|———–|
|———–|
|-8~——–|
|-8~——–|
|-8~——–|

7. Hands Held High– not totally sure if it’s a guitar,
here are the notes anyway
|-5—–5—–5—| |-7—–7—–7—|
|—5—–5——-| |—5—–5——-|
|—–6—–6—6-| |—–6—–6—6-|
|—————–| |—————–|
|—————–| |—————–|
|—————–| x7 |—————–|
That is the first bar, repeat each riff whenever necessary

8. No More Sorrow
Thank you to Michel Franceschino, I was lost in the bridge,
his tab showed me how to play it.
Intro (melody)

http://linkinsoldiers.blogspot.com/
|——————————–|
|-4—-6-7—11—9—11-12—11-|
|——————————–|
|——————————–|
|——————————–|
|——————————–|
Intro (main riff)
|—————|
|—————|
|—————|
|-1-1-1-1-1-1-1-|
|-1-1-1-1-1-1-1-|
|-1-1-1-1-1-1-1-| x4
Verse
|———————————————–|
|———————————————–|
|———————————————–|
|-1-1-1-1-1-1-1—-1-1-1-1—-1-1-1-1-1-1-1-1-1-|
|-1-1-1-1-1-1-1—-1-1-1-1—-1-1-1-1-1-1-1-1-1-|
|-1-1-1-1-1-1-1—-1-1-1-1—-1-1-1-1-1-1-1-1-1-|
Chorus
|————————————————-|
|————————————————-|
|-4-4-4-4-4-4-3-3-3-3-3-3————————-|
|-4-4-4-4-4-4-3-3-3-3-3-3-1-1-1-1-1-1-1-1-1-1-1-1-|
|-2-2-2-2-2-2-1-1-1-1-1-1-1-1-1-1-1-1-1-1-1-1-1-1-|
|————————-1-1-1-1-1-1-1-1-1-1-1-1-| x3

|————————————————-|
|————————————————-|
|————————————————-|
|-4-4-4-4-4-4-4-4-4-4-4-4-8-8-8-8-8-8-0-0-0-0-0-0-|
|-4-4-4-4-4-4-4-4-4-4-4-4-8-8-8-8-8-8-0-0-0-0-0-0-|
|-4-4-4-4-4-4-4-4-4-4-4-4-8-8-8-8-8-8-0-0-0-0-0-0-|
repeat verse, chorus, verse, chorus, then bridge:
|———————————|
|———————————|
|———————————|
|———————————|
|-0—1—0—3—2—0—1—5—|
|-0—1—0—3—2—0—1—5—| repeat however many times necessary
PM. . . . . . . .
Repeat chorus, then verse for outro

http://linkinsoldiers.blogspot.com/

9. Valentine’s Day, main riff, repeat until break
|——————————————–5———————|
|—6—8—10—8—6—8—6—6—6—8——-8—6—8—6—6-|
|-7—7—7—-7—7—7—7—7—5—5—5—5—5—5—5—5—|
|——————————————————————|
|——————————————————————|
|——————————————————————|
Rhythm (plays behind main riff starting at 1:26, ends at same time)
|———————————|
|———————————|
|———————————|
|———————————|
|-0-0-0-0-0-0-0-0-3-3-3-3-3-3-3-3-|
|———————————|
Repeat this riff at 2:06, ending when appropriate
Outro

http://linkinsoldiers.blogspot.com/
|—————————————————————–|
|—————————————————————–|
|-7-7-7-7-7-7-7-7-7-7-7-7-7-7-7-7—————–5-5-5-5-5-5-5-5-|
|-7-7-7-7-7-7-7-7-7-7-7-7-7-7-7-7-3-3-3-3-3-3-3-3-5-5-5-5-5-5-5-5-|
|-5-5-5-5-5-5-5-5-5-5-5-5-5-5-5-5-3-3-3-3-3-3-3-3-3-3-3-3-3-3-3-3-|
|———————————3-3-3-3-3-3-3-3—————–|

10. In Between
Not much guitar in this song, but there is some in
the choruses and the bridge
Chorus
|-13——————-|
|——14———–16-|
|———–13———|
|———————-|
|———————-|
|———————-|
Bridge (repeat as many times as needed)
|-14—13———–|
|———–16——|
|—————-16-|
|——————-|
|——————-|
|——————-| x2

|-13——————-|
|——14———–16-|
|———–13———|
|———————-|
|———————-|
|———————-|

11. In Pieces
Thank you to AFILEX, I had trouble getting the chords
in the beginning, and his tab was right, so that’s how
I play it. The solo was a little easier to tab in my opinion.
Verse

http://linkinsoldiers.blogspot.com/
|————|————–|————–|—————|
|-11—9–9–|-11—9–9–9-|-11—9–9–9-|-9–9–9–8–8-|
|-10—8–8–|-10—8–8–8-|-10—8–8–8-|-8–8–8–7–7-|
|-8—-6–6–|-8—-6–6–6-|-8—-6–6–6-|-6–6–6–5–5-|
|————|————–|————–|—————|
|————|————–|————–|—————|

|————–|————–|————|————|
|-9–9–9–11–|-9–9–9–11–|-9–9–9–9-|-9–9–8–8-|
|-8–8–8–10–|-8–8–8–10–|-8–8–8–8-|-8–8–7–7-|
|-6–6–6–8—|-6–6–6–8—|-6–6–6–6-|-6–6–5–5-|
|————–|————–|————|————|
|————–|————–|————|————| x2

|————–|————–|————–|————|
|-9–11–9–9–|-9–11–9–9–|-9–11–9–9–|-9–9–8–8-|
|-8–10–8–8–|-8–10–8–8–|-8–10–8–8–|-8–8–7–7-|
|-6–8—6–6–|-6–8—6–6–|-6–8—6–6–|-6–6–5–5-|
|————–|————–|————–|————|
|————–|————–|————–|————|
Chorus 1
|—————-|—————-|——————|——————|
|-13–14–16–16-|-13–14–16–16-|–13–13–13–13–|–11–11–11–11–|
|-12–13–15–15-|-12–13–15–15-|–12–12–12–12–|–10–10–10–10–|
|-10–11–13–13-|-10–11–13–13-|–10–10–10–10–|–8—8—8—8—|
|—————-|—————-|——————|——————|
|—————-|—————-|——————|——————| x2
Solo Lead (Play 17p15 part 6x, really fast)
|————|———-|
|————|———-|
|————|———-|
|17p15——-|-17——-|
|——17p15-|—-17-15-|
|————|———-|x3

|————————————————-|
|————————————————-|
|————————————————-|
|-18-18-18-18-18-18-18-18-17-17-17-17-17-17-17-17-|
|————————————————-|
|————————————————-|

(Play first part below 4x)
|————-|—————————-|
|————-|—————————-|
|————-|——-15-17-17p15——-17-|
|-17p15——-|-15-17————-17p15—-|
|——-17p15-|—————————-|
|————-|—————————-| x2
http://linkinsoldiers.blogspot.com/
|——————————-|
|——————————-|
|——-15-17-17p15——-15-17-|
|-15-17————-17p15——-|
|——————————-|
|——————————-| x2

(Play 17p15 part 4x, notice it is up 1 string from before)
|————-|————————-|
|————-|————————-|
|-17p15——-|-17-17-17-17-17-17-17-17-|
|——-17p15-|————————-|
|————-|————————-|
|————-|————————-|
Solo Rhythm (comes in during second half of solo), each note is 16x
|——————————-|
|——————————-|
|–10—————————|
|–10——11——8——10—-|
|—8——11——8——10—-|
|———-11——8——10—-|
Chorus 2 is same as solo rhythm, but played twice
Lead in chorus 2 plays this with some distortion/tremolo picking (listen closely):
|——————————–|
|–17——17——————–|
|——————17——15—-|
|——————————–|
|——————————–|
|——————————–|
Each note is 32x, if I counted correctly
For outro, repeat chorus 1 riff

12. The Little Things Give You Away
Thank you to Stephen McGuire, once again I suck at finding
chords that aren’t power chords, but his intro and verse
are perfect on this site. I tweaked the first part to higher
strings to make it even easier.
Intro/verse (strum lightly), acoustic guitar (gtr 1)
|—————————————————————-|
|—————————————————————-|
|-5-5-5-5-5-5-5-5-5-5-4-2—————————————-|
|-2-2-2-2-2-2-2—2-2-2-2-2—4–4–4–4-5-5–5-5-5-4-4–4-4-4-2-2—|
|-0-0-0-0-0-0-0-0-0-0-0-0-0–0–0–0-0-0–0-0-0-0-0–0-0-0-0-0—|
|————————-0—-0–0–0-0-0–0-0-0-0-0–0-0-0-0-0—| x4
Pre-chorus
|———————————————————————-|
|———————————————————————-|
|———————————————————————-|
|-12-12-12-12-12-12-9-9-9-9-9-9-4—-4—-4–4-5-5–5-5-5-4-4–4-4-4-2-2—|
|-10-10-10-10-10-10-7-7-7-7-7-7-0–0–0–0-0-0–0-0-0-0-0–0-0-0-0-0—|
|-10-10-10-10-10-10-7-7-7-7-7-7-0–0–0–0-0-0–0-0-0-0-0–0-0-0-0-0—|

|———————–|
|———————–|
|———————–|
|-12-12-12-12-12-12-4~–|
|-10-10-10-10-10-10-0~–|
|-10-10-10-10-10-10-0~–|
Chorus 1
|————————-|
|————————-|
|————————-|
|-7-7-7-5-5-5-0-0-0-2-2-2-|
|-7-7-7-5-5-5-0-0-0-2-2-2-|
|-7-7-7-5-5-5-0-0-0-2-2-2-| x2
http://linkinsoldiers.blogspot.com/
|—————————————————|
|—————————————————|
|—————————————————|
|-7-7-7-5-5-5-10—10-10-0—0-0-3-3-3-3-3-3-5-5-5-5~—|
|-7-7-7-5-5-5-10-10-10-0-0-0-3-3-3-3-3-3-5-5-5-5~—|
|-7-7-7-5-5-5-10-10-10-0-0-0-3-3-3-3-3-3-5-5-5-5~—|
Repeat Verse, guitar 2 plays this in second pre-chorus:
|———————————————————————————|
|———————————————————————————|
|-9-9-9-9-9-9-9-9-9-9-9-12-12-11-11-11-11–11-12-12–12-12-12-11-11–11-11-11-9-9-|
|-x-x-x-x-x-x-x-x-x-x-x—-x—-x–x–x–x–x—x–x–x—x–x–x–x–x—x–x–x-x-x-|
|-7-7-7-7-7-7-7-7-7-7-7-10-10—-9–9–9–9—9-10-10–10-10-10–9–9—9–9–9-7-7-|
|———————————————————————————|

|—————————|
|—————————|
|-9-9-9-9-9-9-9-9-9-9-9-9-9-|
|-x-x-x-x-x-x-x-x-x-x-x—x-x-|
|-7-7-7-7-7-7-7-7-7-7-7-7-7-|
|—————————|
Repeat Chorus 1, except with this variation on last bar:
|—————————————————-|
|—————————————————-|
|—————————————————-|
|-7-7-7-5-5-5-10—10-10-0-0-0-3—3-3-3-3-3-2-2-2—5-5—5-|
|-7-7-7-5-5-5-10-10-10-0-0-0-3-3-3-3-3-3-2-2-2—5-5-5-|
|-7-7-7-5-5-5-10-10-10-0-0-0-3-3-3-3-3-3-2-2-2—5-5—5-|
Repeat again, but with this variation on the same bar:
|——————————————————————|
|——————————————————————|
|——————————————————————|
|-7-7-7-5-5-5-10-10-10-0-0-0-3-3-3-3-3-3-3-3-3—3-3-3—5-5-5-5—5—5-5-|
|-7-7-7-5-5-5-10-10-10-0-0-0-3-3-3-3—3-3-3-3-3—3-3—3-5-5-5-5-5-5-5-|
|-7-7-7-5-5-5-10-10-10-0-0-0-3-3-3-3-3-3-3-3-3-3-3-3—5-5-5—5—5—5-5-|
Guitar 2 also adds this to the second chorus:.

http://linkinsoldiers.blogspot.com/

|—————————-|
|-10-10—10-8-8-8————-|
|–x–x–x-x-x-x-7-7-7-9-9-9-|
|–7–7–7-5-5-5-x-x-x-x-x-x-|
|—————-5-5-5-7-7-7-|
|—————————-| x2
Ending variation 1
|—————————————————————-|
|-10-10-10-8-8-8-13-13-13—————————————-|
|–x–x–x-x-x-x–x–x–x-7-7-7-10-10-10-10—10-10-9—9—9—12—12-12-|
|–7–7–7-5-5-5-10-10-10-x-x-x–x–x–x–x–x–x-x-x-x–x–x–x-|
|————————-5-5-5–8–8–8–8–8–8-7—7-7-10-10—10-|
|—————————————————————-|
Ending variation 2 (notice the strum counts under last two notes)
|—————————————-|
|-10-10-10-8-8-8-13-13-13—————-|
|–x–x–x-x-x-x–x–x–x-7-7-7–10–12–|
|–7–7–7-5-5-5-10-10-10-x-x-x—x—x–|
|————————-5-5-5—–8–10–|
|—————————————-|
x12 x7
Bridge Part 1 (pre-solo)
|—————————|
|—————————|
|—————————|
|-5-4-2~——-2-2-4~——-|
|—————————|
|—————————|
Bridge Part 2, Solo
|——-|——-7–7-5—5——————-7~-7-5—5~————|
|-8-7-5-|-5–5———8—-7^—8-7-5-5~-5~——–8—-7^-8-7-5-5-|
|——-|———————————————————–|
|——-|———————————————————–|
|——-|———————————————————–|
|——-|———————————————————–|
(Continued)
—————–10-10-10————10—10-14–14-10–10-12-10-12-14-12-14-|
—5-7-5-7-8-7-8———-10-10-10-10–10——10—–10———————|
-7—————————————————————————|
—————————————————————————–|
—————————————————————————–|
—————————————————————————–|
(Continued)
-15-14-15-17-17-17————————-|
——————-19~—20–19—15~–15~—|
——————————————-|
——————————————-|
——————————————-|
——————————————-|
Solo repeats this until end
|———————–|
|-15——15–17—–17-|
|—–14———-14—-|
|———————–|
|———————–|
|———————–|
Also, another riff played halfway through outro:
|——-19-17-15-17-19———-19-17-|
|-15-17—————-17-15-17——-|
|————————————-|
|————————————-|
|————————————-|
|————————————-|
Guitar 3 (electric) plays this as rhythm for bridge part 2, outro
|————————————————————————-|
|————————————————————————-|
|————————————————————————-|
|-10-10-10-10-10-10-10-10-10-10-10-10-12-12-12-12-12-12-12-12-12-12-12-12-|
|-10-10-10-10-10-10-10-10-10—10-10-10-12-12-12-12-12-12-12-12-12-12-12-12-|

|-10-10-10-10-10-10-10-10-10-10-10-10-12-12-12-12-12-12-12-12-12-12-12-12-|

Dejá un comentario

Tu dirección de correo electrónico no será publicada. Los campos necesarios están marcados *

Nuevo Disco de Linkin Park

Linkin Park Tablaturas Hybrid Theory